ISO-10303-21;
HEADER;
FILE_DESCRIPTION (( 'STEP AP203' ),
    '1' );
FILE_NAME ('Q-OZHWP-R2-10-852-M.STEP',
    '2020-12-22T09:12:36',
    ( '' ),
    ( '' ),
    'SwSTEP 2.0',
    'SolidWorks 2020',
    '' );
FILE_SCHEMA (( 'CONFIG_CONTROL_DESIGN' ));
ENDSEC;

DATA;
#1 = PERSON_AND_ORGANIZATION_ROLE ( 'creator' ) ;
#2 = DATE_AND_TIME ( #151, #141 ) ;
#3 = AXIS2_PLACEMENT_3D ( 'NONE', #160, #110, #63 ) ;
#4 = DATE_TIME_ROLE ( 'creation_date' ) ;
#5 = DIRECTION ( 'NONE',  ( 0.000000000000000000, 0.000000000000000000, 1.000000000000000000 ) ) ;
#6 = PERSON_AND_ORGANIZATION ( #30, #128 ) ;
#7 = ORIENTED_EDGE ( 'NONE', *, *, #232, .T. ) ;
#8 = CARTESIAN_POINT ( 'NONE',  ( -3.000000000000000000, 1.555301434917138433E-15, -12.69999999999999929 ) ) ;
#9 = ORIENTED_EDGE ( 'NONE', *, *, #188, .F. ) ;
#10 = CC_DESIGN_PERSON_AND_ORGANIZATION_ASSIGNMENT ( #177, #209, ( #274 ) ) ;
#11 = ORIENTED_EDGE ( 'NONE', *, *, #173, .F. ) ;
#12 = ORIENTED_EDGE ( 'NONE', *, *, #74, .T. ) ;
#13 = CARTESIAN_POINT ( 'NONE',  ( 3.000000000000000000, 6.123233995736768255E-16, -5.000000000000001776 ) ) ;
#14 = PRODUCT_DEFINITION_SHAPE ( 'NONE', 'NONE',  #254 ) ;
#15 = ORIENTED_EDGE ( 'NONE', *, *, #95, .F. ) ;
#16 = DIRECTION ( 'NONE',  ( 0.000000000000000000, 0.000000000000000000, 1.000000000000000000 ) ) ;
#17 = AXIS2_PLACEMENT_3D ( 'NONE', #98, #250, #197 ) ;
#18 = DIRECTION ( 'NONE',  ( -1.000000000000000000, -0.000000000000000000, -0.000000000000000000 ) ) ;
#19 = CYLINDRICAL_SURFACE ( 'NONE', #116, 5.000000000000000888 ) ;
#20 = DIRECTION ( 'NONE',  ( -1.000000000000000000, -0.000000000000000000, -0.000000000000000000 ) ) ;
#21 = CC_DESIGN_APPROVAL ( #125, ( #254 ) ) ;
#22 = CARTESIAN_POINT ( 'NONE',  ( -1.250000000000000222, 0.000000000000000000, 0.000000000000000000 ) ) ;
#23 = CARTESIAN_POINT ( 'NONE',  ( 3.000000000000000000, 0.000000000000000000, 0.000000000000000000 ) ) ;
#24 = AXIS2_PLACEMENT_3D ( 'NONE', #323, #194, #211 ) ;
#25 = DATE_TIME_ROLE ( 'classification_date' ) ;
#26 = AXIS2_PLACEMENT_3D ( 'NONE', #204, #228, #277 ) ;
#27 = APPROVAL_DATE_TIME ( #129, #71 ) ;
#28 = APPLICATION_CONTEXT ( 'configuration controlled 3d designs of mechanical parts and assemblies' ) ;
#29 =( LENGTH_UNIT ( ) NAMED_UNIT ( * ) SI_UNIT ( .MILLI., .METRE. ) );
#30 = PERSON ( 'UNSPECIFIED', 'UNSPECIFIED', 'UNSPECIFIED', ('UNSPECIFIED'), ('UNSPECIFIED'), ('UNSPECIFIED') ) ;
#31 = EDGE_CURVE ( 'NONE', #242, #294, #266, .T. ) ;
#32 = APPROVAL_STATUS ( 'not_yet_approved' ) ;
#33 = ORIENTED_EDGE ( 'NONE', *, *, #181, .F. ) ;
#34 = VERTEX_POINT ( 'NONE', #270 ) ;
#35 = DIRECTION ( 'NONE',  ( -1.000000000000000000, -0.000000000000000000, -0.000000000000000000 ) ) ;
#36 = CC_DESIGN_PERSON_AND_ORGANIZATION_ASSIGNMENT ( #282, #54, ( #305 ) ) ;
#37 = VECTOR ( 'NONE', #221, 1000.000000000000000 ) ;
#38 = DIRECTION ( 'NONE',  ( -1.000000000000000000, -0.000000000000000000, -0.000000000000000000 ) ) ;
#39 = ORIENTED_EDGE ( 'NONE', *, *, #167, .T. ) ;
#40 = EDGE_CURVE ( 'NONE', #108, #294, #55, .T. ) ;
#41 = EDGE_LOOP ( 'NONE', ( #195, #11 ) ) ;
#42 = VERTEX_POINT ( 'NONE', #238 ) ;
#43 = ADVANCED_FACE ( 'NONE', ( #112 ), #322, .F. ) ;
#44 = DIRECTION ( 'NONE',  ( -1.000000000000000000, -0.000000000000000000, -0.000000000000000000 ) ) ;
#45 = DIRECTION ( 'NONE',  ( 0.000000000000000000, 0.000000000000000000, 1.000000000000000000 ) ) ;
#46 = CIRCLE ( 'NONE', #145, 5.000000000000000888 ) ;
#47 = LINE ( 'NONE', #102, #37 ) ;
#48 = CARTESIAN_POINT ( 'NONE',  ( 3.000000000000000000, 0.000000000000000000, 0.000000000000000000 ) ) ;
#49 = CIRCLE ( 'NONE', #3, 12.69999999999999929 ) ;
#50 = LINE ( 'NONE', #309, #157 ) ;
#51 = EDGE_CURVE ( 'NONE', #325, #108, #273, .T. ) ;
#52 = DIRECTION ( 'NONE',  ( 0.000000000000000000, 0.000000000000000000, 1.000000000000000000 ) ) ;
#53 = APPROVAL_PERSON_ORGANIZATION ( #317, #125, #205 ) ;
#54 = PERSON_AND_ORGANIZATION_ROLE ( 'design_owner' ) ;
#55 = CIRCLE ( 'NONE', #107, 5.000000000000000000 ) ;
#56 = MECHANICAL_CONTEXT ( 'NONE', #28, 'mechanical' ) ;
#57 = CALENDAR_DATE ( 2020, 22, 12 ) ;
#58 = ORIENTED_EDGE ( 'NONE', *, *, #188, .T. ) ;
#59 = CARTESIAN_POINT ( 'NONE',  ( -3.000000000000000000, 0.000000000000000000, 0.000000000000000000 ) ) ;
#60 = DIRECTION ( 'NONE',  ( -1.000000000000000000, -0.000000000000000000, -0.000000000000000000 ) ) ;
#61 = ORIENTED_EDGE ( 'NONE', *, *, #31, .T. ) ;
#62 = CC_DESIGN_SECURITY_CLASSIFICATION ( #274, ( #239 ) ) ;
#63 = DIRECTION ( 'NONE',  ( 0.000000000000000000, 0.000000000000000000, 1.000000000000000000 ) ) ;
#64 = VERTEX_POINT ( 'NONE', #8 ) ;
#65 = EDGE_LOOP ( 'NONE', ( #219, #240, #39, #214 ) ) ;
#66 = ORIENTED_EDGE ( 'NONE', *, *, #292, .T. ) ;
#67 = DIRECTION ( 'NONE',  ( 1.000000000000000000, 0.000000000000000000, 0.000000000000000000 ) ) ;
#68 = CARTESIAN_POINT ( 'NONE',  ( -3.000000000000000000, 6.123233995736766282E-16, -5.000000000000000000 ) ) ;
#69 = APPROVAL_PERSON_ORGANIZATION ( #230, #283, #124 ) ;
#70 = CYLINDRICAL_SURFACE ( 'NONE', #76, 12.69999999999999929 ) ;
#71 = APPROVAL ( #32, 'UNSPECIFIED' ) ;
#72 = DIRECTION ( 'NONE',  ( 0.000000000000000000, 0.000000000000000000, -1.000000000000000000 ) ) ;
#73 = CLOSED_SHELL ( 'NONE', ( #88, #299, #285, #307, #43, #193, #227, #330, #83, #148 ) ) ;
#74 = EDGE_CURVE ( 'NONE', #159, #64, #49, .T. ) ;
#75 = DIRECTION ( 'NONE',  ( 0.000000000000000000, 0.000000000000000000, 1.000000000000000000 ) ) ;
#76 = AXIS2_PLACEMENT_3D ( 'NONE', #171, #276, #180 ) ;
#77 = DIRECTION ( 'NONE',  ( 0.000000000000000000, 0.000000000000000000, 1.000000000000000000 ) ) ;
#78 = LOCAL_TIME ( 17, 12, 36.00000000000000000, #156 ) ;
#79 = PERSON_AND_ORGANIZATION_ROLE ( 'design_supplier' ) ;
#80 = CC_DESIGN_PERSON_AND_ORGANIZATION_ASSIGNMENT ( #6, #79, ( #239 ) ) ;
#81 = VERTEX_POINT ( 'NONE', #166 ) ;
#82 = DATE_AND_TIME ( #284, #78 ) ;
#83 = ADVANCED_FACE ( 'NONE', ( #244, #196 ), #213, .F. ) ;
#84 =( GEOMETRIC_REPRESENTATION_CONTEXT ( 3 ) GLOBAL_UNCERTAINTY_ASSIGNED_CONTEXT ( ( #203 ) ) GLOBAL_UNIT_ASSIGNED_CONTEXT ( ( #29, #176, #236 ) ) REPRESENTATION_CONTEXT ( 'NONE', 'WORKASPACE' ) );
#85 = VERTEX_POINT ( 'NONE', #13 ) ;
#86 = CARTESIAN_POINT ( 'NONE',  ( -3.000000000000000000, 0.000000000000000000, 12.69999999999999929 ) ) ;
#87 = DIRECTION ( 'NONE',  ( -1.000000000000000000, -0.000000000000000000, -0.000000000000000000 ) ) ;
#88 = ADVANCED_FACE ( 'NONE', ( #140 ), #164, .T. ) ;
#89 = CIRCLE ( 'NONE', #202, 12.69999999999999929 ) ;
#90 = CARTESIAN_POINT ( 'NONE',  ( -1.614212418857619014, 0.000000000000000000, 0.000000000000000000 ) ) ;
#91 = EDGE_CURVE ( 'NONE', #64, #159, #89, .T. ) ;
#92 = ORIENTED_EDGE ( 'NONE', *, *, #247, .F. ) ;
#93 = AXIS2_PLACEMENT_3D ( 'NONE', #172, #306, #75 ) ;
#94 = DIRECTION ( 'NONE',  ( -1.000000000000000000, -0.000000000000000000, -0.000000000000000000 ) ) ;
#95 = EDGE_CURVE ( 'NONE', #34, #81, #245, .T. ) ;
#96 = EDGE_LOOP ( 'NONE', ( #246, #187 ) ) ;
#97 = CARTESIAN_POINT ( 'NONE',  ( -1.614212418857619014, 6.123233995736767268E-16, -5.000000000000000888 ) ) ;
#98 = CARTESIAN_POINT ( 'NONE',  ( 1.250000000000000222, 5.000000000000000000, 0.000000000000000000 ) ) ;
#99 = CIRCLE ( 'NONE', #308, 5.000000000000001776 ) ;
#100 = FACE_OUTER_BOUND ( 'NONE', #297, .T. ) ;
#101 = DIRECTION ( 'NONE',  ( -1.000000000000000000, -0.000000000000000000, -0.000000000000000000 ) ) ;
#102 = CARTESIAN_POINT ( 'NONE',  ( -1.614212418857619014, 0.000000000000000000, 12.69999999999999929 ) ) ;
#103 = DIRECTION ( 'NONE',  ( -1.000000000000000000, -0.000000000000000000, -0.000000000000000000 ) ) ;
#104 = APPROVAL_STATUS ( 'not_yet_approved' ) ;
#105 = APPLICATION_PROTOCOL_DEFINITION ( 'international standard', 'config_control_design', 1994, #147 ) ;
#106 = APPROVAL_ROLE ( '' ) ;
#107 = AXIS2_PLACEMENT_3D ( 'NONE', #117, #94, #217 ) ;
#108 = VERTEX_POINT ( 'NONE', #290 ) ;
#109 = CIRCLE ( 'NONE', #229, 5.000000000000000888 ) ;
#110 = DIRECTION ( 'NONE',  ( -1.000000000000000000, -0.000000000000000000, -0.000000000000000000 ) ) ;
#111 = VERTEX_POINT ( 'NONE', #296 ) ;
#112 = FACE_OUTER_BOUND ( 'NONE', #65, .T. ) ;
#113 = ORIENTED_EDGE ( 'NONE', *, *, #31, .F. ) ;
#114 = DIRECTION ( 'NONE',  ( -1.000000000000000000, -0.000000000000000000, -0.000000000000000000 ) ) ;
#115 = EDGE_LOOP ( 'NONE', ( #216, #15 ) ) ;
#116 = AXIS2_PLACEMENT_3D ( 'NONE', #329, #280, #253 ) ;
#117 = CARTESIAN_POINT ( 'NONE',  ( -3.000000000000000000, 0.000000000000000000, 0.000000000000000000 ) ) ;
#118 = DIRECTION ( 'NONE',  ( -1.000000000000000000, -0.000000000000000000, -0.000000000000000000 ) ) ;
#119 = DIRECTION ( 'NONE',  ( -1.000000000000000000, -0.000000000000000000, -0.000000000000000000 ) ) ;
#120 = DIRECTION ( 'NONE',  ( 0.000000000000000000, 0.000000000000000000, 1.000000000000000000 ) ) ;
#121 = DIRECTION ( 'NONE',  ( 1.000000000000000000, 0.000000000000000000, 0.000000000000000000 ) ) ;
#122 = CARTESIAN_POINT ( 'NONE',  ( -1.250000000000000222, 6.123233995736767268E-16, -5.000000000000000888 ) ) ;
#123 = CIRCLE ( 'NONE', #212, 5.000000000000000000 ) ;
#124 = APPROVAL_ROLE ( '' ) ;
#125 = APPROVAL ( #233, 'UNSPECIFIED' ) ;
#126 = APPROVAL_DATE_TIME ( #2, #125 ) ;
#127 = DIRECTION ( 'NONE',  ( 1.000000000000000000, 0.000000000000000000, 0.000000000000000000 ) ) ;
#128 = ORGANIZATION ( 'UNSPECIFIED', 'UNSPECIFIED', '' ) ;
#129 = DATE_AND_TIME ( #310, #261 ) ;
#130 = EDGE_CURVE ( 'NONE', #165, #85, #333, .T. ) ;
#131 = EDGE_LOOP ( 'NONE', ( #134, #163, #286, #137 ) ) ;
#132 = VECTOR ( 'NONE', #114, 1000.000000000000000 ) ;
#133 = ORIENTED_EDGE ( 'NONE', *, *, #40, .T. ) ;
#134 = ORIENTED_EDGE ( 'NONE', *, *, #232, .F. ) ;
#135 = ORIENTED_EDGE ( 'NONE', *, *, #279, .F. ) ;
#136 = ORIENTED_EDGE ( 'NONE', *, *, #51, .T. ) ;
#137 = ORIENTED_EDGE ( 'NONE', *, *, #91, .F. ) ;
#138 = EDGE_LOOP ( 'NONE', ( #12, #295 ) ) ;
#139 = AXIS2_PLACEMENT_3D ( 'NONE', #272, #60, #319 ) ;
#140 = FACE_OUTER_BOUND ( 'NONE', #263, .T. ) ;
#141 = LOCAL_TIME ( 17, 12, 36.00000000000000000, #258 ) ;
#142 = CARTESIAN_POINT ( 'NONE',  ( -1.614212418857619014, 0.000000000000000000, 5.000000000000000888 ) ) ;
#143 = DIRECTION ( 'NONE',  ( 0.000000000000000000, 0.000000000000000000, -1.000000000000000000 ) ) ;
#144 = DIRECTION ( 'NONE',  ( 1.000000000000000000, 0.000000000000000000, 0.000000000000000000 ) ) ;
#145 = AXIS2_PLACEMENT_3D ( 'NONE', #275, #144, #72 ) ;
#146 = CARTESIAN_POINT ( 'NONE',  ( -3.000000000000000000, 0.000000000000000000, 0.000000000000000000 ) ) ;
#147 = APPLICATION_CONTEXT ( 'configuration controlled 3d designs of mechanical parts and assemblies' ) ;
#148 = ADVANCED_FACE ( 'NONE', ( #298 ), #326, .F. ) ;
#149 = CARTESIAN_POINT ( 'NONE',  ( -3.000000000000000000, 5.000000000000000000, 0.000000000000000000 ) ) ;
#150 = DIRECTION ( 'NONE',  ( -1.000000000000000000, -0.000000000000000000, -0.000000000000000000 ) ) ;
#151 = CALENDAR_DATE ( 2020, 22, 12 ) ;
#152 = MANIFOLD_SOLID_BREP ( 'Ðý×', #73 ) ;
#153 = DATE_AND_TIME ( #57, #169 ) ;
#154 = AXIS2_PLACEMENT_3D ( 'NONE', #90, #87, #16 ) ;
#155 = CC_DESIGN_PERSON_AND_ORGANIZATION_ASSIGNMENT ( #259, #207, ( #254 ) ) ;
#156 = COORDINATED_UNIVERSAL_TIME_OFFSET ( 8, 0, .AHEAD. ) ;
#157 = VECTOR ( 'NONE', #150, 1000.000000000000000 ) ;
#158 = ORIENTED_EDGE ( 'NONE', *, *, #173, .T. ) ;
#159 = VERTEX_POINT ( 'NONE', #86 ) ;
#160 = CARTESIAN_POINT ( 'NONE',  ( -3.000000000000000000, 0.000000000000000000, 0.000000000000000000 ) ) ;
#161 = CARTESIAN_POINT ( 'NONE',  ( 3.000000000000000000, 0.000000000000000000, 5.000000000000001776 ) ) ;
#162 = AXIS2_PLACEMENT_3D ( 'NONE', #175, #281, #52 ) ;
#163 = ORIENTED_EDGE ( 'NONE', *, *, #95, .T. ) ;
#164 = CYLINDRICAL_SURFACE ( 'NONE', #154, 12.69999999999999929 ) ;
#165 = VERTEX_POINT ( 'NONE', #161 ) ;
#166 = CARTESIAN_POINT ( 'NONE',  ( 3.000000000000000000, 0.000000000000000000, 12.69999999999999929 ) ) ;
#167 = EDGE_CURVE ( 'NONE', #165, #42, #289, .T. ) ;
#168 = DIRECTION ( 'NONE',  ( 0.000000000000000000, 0.000000000000000000, -1.000000000000000000 ) ) ;
#169 = LOCAL_TIME ( 17, 12, 36.00000000000000000, #183 ) ;
#170 = CYLINDRICAL_SURFACE ( 'NONE', #162, 5.000000000000000888 ) ;
#171 = CARTESIAN_POINT ( 'NONE',  ( -1.614212418857619014, 0.000000000000000000, 0.000000000000000000 ) ) ;
#172 = CARTESIAN_POINT ( 'NONE',  ( 1.250000000000000444, 0.000000000000000000, 0.000000000000000000 ) ) ;
#173 = EDGE_CURVE ( 'NONE', #294, #108, #123, .T. ) ;
#174 = DIRECTION ( 'NONE',  ( 1.000000000000000000, 0.000000000000000000, 0.000000000000000000 ) ) ;
#175 = CARTESIAN_POINT ( 'NONE',  ( -1.614212418857619014, 0.000000000000000000, 0.000000000000000000 ) ) ;
#176 =( NAMED_UNIT ( * ) PLANE_ANGLE_UNIT ( ) SI_UNIT ( $, .RADIAN. ) );
#177 = PERSON_AND_ORGANIZATION ( #30, #128 ) ;
#178 = AXIS2_PLACEMENT_3D ( 'NONE', #260, #5, #127 ) ;
#179 = SECURITY_CLASSIFICATION_LEVEL ( 'unclassified' ) ;
#180 = DIRECTION ( 'NONE',  ( 0.000000000000000000, 0.000000000000000000, 1.000000000000000000 ) ) ;
#181 = EDGE_CURVE ( 'NONE', #85, #165, #99, .T. ) ;
#182 = ORIENTED_EDGE ( 'NONE', *, *, #279, .T. ) ;
#183 = COORDINATED_UNIVERSAL_TIME_OFFSET ( 8, 0, .AHEAD. ) ;
#184 = CC_DESIGN_APPROVAL ( #71, ( #239 ) ) ;
#185 = ORIENTED_EDGE ( 'NONE', *, *, #167, .F. ) ;
#186 = CARTESIAN_POINT ( 'NONE',  ( -1.250000000000000222, 5.000000000000000000, 0.000000000000000000 ) ) ;
#187 = ORIENTED_EDGE ( 'NONE', *, *, #181, .T. ) ;
#188 = EDGE_CURVE ( 'NONE', #242, #325, #46, .T. ) ;
#189 = DIRECTION ( 'NONE',  ( 0.000000000000000000, 0.000000000000000000, 1.000000000000000000 ) ) ;
#190 = EDGE_LOOP ( 'NONE', ( #271, #9 ) ) ;
#191 = AXIS2_PLACEMENT_3D ( 'NONE', #302, #119, #201 ) ;
#192 = ORIENTED_EDGE ( 'NONE', *, *, #262, .F. ) ;
#193 = ADVANCED_FACE ( 'NONE', ( #225 ), #19, .F. ) ;
#194 = DIRECTION ( 'NONE',  ( -1.000000000000000000, -0.000000000000000000, -0.000000000000000000 ) ) ;
#195 = ORIENTED_EDGE ( 'NONE', *, *, #40, .F. ) ;
#196 = FACE_BOUND ( 'NONE', #96, .T. ) ;
#197 = DIRECTION ( 'NONE',  ( -0.000000000000000000, 0.000000000000000000, 1.000000000000000000 ) ) ;
#198 = AXIS2_PLACEMENT_3D ( 'NONE', #149, #121, #143 ) ;
#199 = FACE_OUTER_BOUND ( 'NONE', #131, .T. ) ;
#200 = FACE_BOUND ( 'NONE', #41, .T. ) ;
#201 = DIRECTION ( 'NONE',  ( 0.000000000000000000, 0.000000000000000000, 1.000000000000000000 ) ) ;
#202 = AXIS2_PLACEMENT_3D ( 'NONE', #59, #18, #189 ) ;
#203 = UNCERTAINTY_MEASURE_WITH_UNIT (LENGTH_MEASURE( 1.000000000000000082E-05 ), #29, 'distance_accuracy_value', 'NONE');
#204 = CARTESIAN_POINT ( 'NONE',  ( -1.614212418857619014, 0.000000000000000000, 0.000000000000000000 ) ) ;
#205 = APPROVAL_ROLE ( '' ) ;
#206 = PERSON_AND_ORGANIZATION ( #30, #128 ) ;
#207 = PERSON_AND_ORGANIZATION_ROLE ( 'creator' ) ;
#208 = COORDINATED_UNIVERSAL_TIME_OFFSET ( 8, 0, .AHEAD. ) ;
#209 = PERSON_AND_ORGANIZATION_ROLE ( 'classification_officer' ) ;
#210 = ORIENTED_EDGE ( 'NONE', *, *, #234, .T. ) ;
#211 = DIRECTION ( 'NONE',  ( 0.000000000000000000, 0.000000000000000000, 1.000000000000000000 ) ) ;
#212 = AXIS2_PLACEMENT_3D ( 'NONE', #146, #101, #77 ) ;
#213 = PLANE ( 'NONE',  #237 ) ;
#214 = ORIENTED_EDGE ( 'NONE', *, *, #247, .T. ) ;
#215 = EDGE_LOOP ( 'NONE', ( #113, #58, #136, #133 ) ) ;
#216 = ORIENTED_EDGE ( 'NONE', *, *, #234, .F. ) ;
#217 = DIRECTION ( 'NONE',  ( 0.000000000000000000, 0.000000000000000000, 1.000000000000000000 ) ) ;
#218 = EDGE_CURVE ( 'NONE', #325, #242, #109, .T. ) ;
#219 = ORIENTED_EDGE ( 'NONE', *, *, #292, .F. ) ;
#220 = DIRECTION ( 'NONE',  ( -0.000000000000000000, 0.000000000000000000, 1.000000000000000000 ) ) ;
#221 = DIRECTION ( 'NONE',  ( -1.000000000000000000, -0.000000000000000000, -0.000000000000000000 ) ) ;
#222 = FACE_OUTER_BOUND ( 'NONE', #293, .T. ) ;
#223 = AXIS2_PLACEMENT_3D ( 'NONE', #23, #103, #226 ) ;
#224 = PRODUCT_RELATED_PRODUCT_CATEGORY ( 'detail', '', ( #305 ) ) ;
#225 = FACE_OUTER_BOUND ( 'NONE', #215, .T. ) ;
#226 = DIRECTION ( 'NONE',  ( 0.000000000000000000, 0.000000000000000000, 1.000000000000000000 ) ) ;
#227 = ADVANCED_FACE ( 'NONE', ( #200, #252 ), #303, .F. ) ;
#228 = DIRECTION ( 'NONE',  ( -1.000000000000000000, -0.000000000000000000, -0.000000000000000000 ) ) ;
#229 = AXIS2_PLACEMENT_3D ( 'NONE', #22, #174, #335 ) ;
#230 = PERSON_AND_ORGANIZATION ( #30, #128 ) ;
#231 = COORDINATED_UNIVERSAL_TIME_OFFSET ( 8, 0, .AHEAD. ) ;
#232 = EDGE_CURVE ( 'NONE', #34, #64, #331, .T. ) ;
#233 = APPROVAL_STATUS ( 'not_yet_approved' ) ;
#234 = EDGE_CURVE ( 'NONE', #81, #34, #324, .T. ) ;
#235 = CIRCLE ( 'NONE', #191, 5.000000000000000000 ) ;
#236 =( NAMED_UNIT ( * ) SI_UNIT ( $, .STERADIAN. ) SOLID_ANGLE_UNIT ( ) );
#237 = AXIS2_PLACEMENT_3D ( 'NONE', #320, #249, #220 ) ;
#238 = CARTESIAN_POINT ( 'NONE',  ( 1.250000000000000444, 0.000000000000000000, 5.000000000000000000 ) ) ;
#239 = PRODUCT_DEFINITION_FORMATION_WITH_SPECIFIED_SOURCE ( 'ANY', '', #305, .NOT_KNOWN. ) ;
#240 = ORIENTED_EDGE ( 'NONE', *, *, #130, .F. ) ;
#241 = EDGE_LOOP ( 'NONE', ( #92, #135 ) ) ;
#242 = VERTEX_POINT ( 'NONE', #122 ) ;
#243 = APPROVAL_DATE_TIME ( #318, #283 ) ;
#244 = FACE_OUTER_BOUND ( 'NONE', #115, .T. ) ;
#245 = CIRCLE ( 'NONE', #24, 12.69999999999999929 ) ;
#246 = ORIENTED_EDGE ( 'NONE', *, *, #130, .T. ) ;
#247 = EDGE_CURVE ( 'NONE', #42, #111, #235, .T. ) ;
#248 = CARTESIAN_POINT ( 'NONE',  ( -1.614212418857619014, 0.000000000000000000, 0.000000000000000000 ) ) ;
#249 = DIRECTION ( 'NONE',  ( -1.000000000000000000, 0.000000000000000000, -0.000000000000000000 ) ) ;
#250 = DIRECTION ( 'NONE',  ( -1.000000000000000000, 0.000000000000000000, -0.000000000000000000 ) ) ;
#251 = CC_DESIGN_PERSON_AND_ORGANIZATION_ASSIGNMENT ( #287, #1, ( #239 ) ) ;
#252 = FACE_OUTER_BOUND ( 'NONE', #138, .T. ) ;
#253 = DIRECTION ( 'NONE',  ( 0.000000000000000000, 0.000000000000000000, 1.000000000000000000 ) ) ;
#254 = PRODUCT_DEFINITION ( 'UNKNOWN', '', #239, #313 ) ;
#255 = CARTESIAN_POINT ( 'NONE',  ( -1.614212418857619014, 1.555301434917138433E-15, -12.69999999999999929 ) ) ;
#256 = PLANE ( 'NONE',  #17 ) ;
#257 = LOCAL_TIME ( 17, 12, 36.00000000000000000, #231 ) ;
#258 = COORDINATED_UNIVERSAL_TIME_OFFSET ( 8, 0, .AHEAD. ) ;
#259 = PERSON_AND_ORGANIZATION ( #30, #128 ) ;
#260 = CARTESIAN_POINT ( 'NONE',  ( 0.000000000000000000, 0.000000000000000000, 0.000000000000000000 ) ) ;
#261 = LOCAL_TIME ( 17, 12, 36.00000000000000000, #208 ) ;
#262 = EDGE_CURVE ( 'NONE', #81, #159, #47, .T. ) ;
#263 = EDGE_LOOP ( 'NONE', ( #210, #7, #264, #192 ) ) ;
#264 = ORIENTED_EDGE ( 'NONE', *, *, #74, .F. ) ;
#265 = SHAPE_DEFINITION_REPRESENTATION ( #14, #311 ) ;
#266 = LINE ( 'NONE', #97, #291 ) ;
#267 = CARTESIAN_POINT ( 'NONE',  ( -1.614212418857619014, 0.000000000000000000, 5.000000000000000888 ) ) ;
#268 = APPROVAL_PERSON_ORGANIZATION ( #206, #71, #106 ) ;
#269 = CALENDAR_DATE ( 2020, 22, 12 ) ;
#270 = CARTESIAN_POINT ( 'NONE',  ( 3.000000000000000000, 1.555301434917138433E-15, -12.69999999999999929 ) ) ;
#271 = ORIENTED_EDGE ( 'NONE', *, *, #218, .F. ) ;
#272 = CARTESIAN_POINT ( 'NONE',  ( 3.000000000000000000, 0.000000000000000000, 0.000000000000000000 ) ) ;
#273 = LINE ( 'NONE', #142, #132 ) ;
#274 = SECURITY_CLASSIFICATION ( '', '', #179 ) ;
#275 = CARTESIAN_POINT ( 'NONE',  ( -1.250000000000000222, 0.000000000000000000, 0.000000000000000000 ) ) ;
#276 = DIRECTION ( 'NONE',  ( -1.000000000000000000, -0.000000000000000000, -0.000000000000000000 ) ) ;
#277 = DIRECTION ( 'NONE',  ( 0.000000000000000000, 0.000000000000000000, 1.000000000000000000 ) ) ;
#278 = CIRCLE ( 'NONE', #93, 5.000000000000000000 ) ;
#279 = EDGE_CURVE ( 'NONE', #111, #42, #278, .T. ) ;
#280 = DIRECTION ( 'NONE',  ( -1.000000000000000000, -0.000000000000000000, -0.000000000000000000 ) ) ;
#281 = DIRECTION ( 'NONE',  ( -1.000000000000000000, -0.000000000000000000, -0.000000000000000000 ) ) ;
#282 = PERSON_AND_ORGANIZATION ( #30, #128 ) ;
#283 = APPROVAL ( #104, 'UNSPECIFIED' ) ;
#284 = CALENDAR_DATE ( 2020, 22, 12 ) ;
#285 = ADVANCED_FACE ( 'NONE', ( #222 ), #327, .F. ) ;
#286 = ORIENTED_EDGE ( 'NONE', *, *, #262, .T. ) ;
#287 = PERSON_AND_ORGANIZATION ( #30, #128 ) ;
#288 = ORIENTED_EDGE ( 'NONE', *, *, #218, .T. ) ;
#289 = LINE ( 'NONE', #267, #334 ) ;
#290 = CARTESIAN_POINT ( 'NONE',  ( -3.000000000000000000, 0.000000000000000000, 5.000000000000000000 ) ) ;
#291 = VECTOR ( 'NONE', #35, 1000.000000000000000 ) ;
#292 = EDGE_CURVE ( 'NONE', #85, #111, #50, .T. ) ;
#293 = EDGE_LOOP ( 'NONE', ( #33, #66, #182, #185 ) ) ;
#294 = VERTEX_POINT ( 'NONE', #68 ) ;
#295 = ORIENTED_EDGE ( 'NONE', *, *, #91, .T. ) ;
#296 = CARTESIAN_POINT ( 'NONE',  ( 1.250000000000000444, 6.123233995736766282E-16, -5.000000000000000000 ) ) ;
#297 = EDGE_LOOP ( 'NONE', ( #288, #61, #158, #316 ) ) ;
#298 = FACE_OUTER_BOUND ( 'NONE', #190, .T. ) ;
#299 = ADVANCED_FACE ( 'NONE', ( #100 ), #170, .F. ) ;
#300 = CARTESIAN_POINT ( 'NONE',  ( -1.250000000000000222, 0.000000000000000000, 5.000000000000000888 ) ) ;
#301 = CC_DESIGN_APPROVAL ( #283, ( #274 ) ) ;
#302 = CARTESIAN_POINT ( 'NONE',  ( 1.250000000000000444, 0.000000000000000000, 0.000000000000000000 ) ) ;
#303 = PLANE ( 'NONE',  #198 ) ;
#304 = AXIS2_PLACEMENT_3D ( 'NONE', #248, #44, #45 ) ;
#305 = PRODUCT ( 'Q-OZHWP-R2-10-852-M', 'Q-OZHWP-R2-10-852-M', '', ( #56 ) ) ;
#306 = DIRECTION ( 'NONE',  ( -1.000000000000000000, -0.000000000000000000, -0.000000000000000000 ) ) ;
#307 = ADVANCED_FACE ( 'NONE', ( #328 ), #256, .F. ) ;
#308 = AXIS2_PLACEMENT_3D ( 'NONE', #48, #118, #120 ) ;
#309 = CARTESIAN_POINT ( 'NONE',  ( -1.614212418857619014, 6.123233995736767268E-16, -5.000000000000000888 ) ) ;
#310 = CALENDAR_DATE ( 2020, 22, 12 ) ;
#311 = ADVANCED_BREP_SHAPE_REPRESENTATION ( 'Q-OZHWP-R2-10-852-M', ( #152, #178 ), #84 ) ;
#312 = CC_DESIGN_DATE_AND_TIME_ASSIGNMENT ( #82, #4, ( #254 ) ) ;
#313 = DESIGN_CONTEXT ( 'detailed design', #147, 'design' ) ;
#314 = VECTOR ( 'NONE', #20, 1000.000000000000000 ) ;
#315 = APPLICATION_PROTOCOL_DEFINITION ( 'international standard', 'config_control_design', 1994, #28 ) ;
#316 = ORIENTED_EDGE ( 'NONE', *, *, #51, .F. ) ;
#317 = PERSON_AND_ORGANIZATION ( #30, #128 ) ;
#318 = DATE_AND_TIME ( #269, #257 ) ;
#319 = DIRECTION ( 'NONE',  ( 0.000000000000000000, 0.000000000000000000, 1.000000000000000000 ) ) ;
#320 = CARTESIAN_POINT ( 'NONE',  ( 3.000000000000000000, 12.69999999999999929, 0.000000000000000000 ) ) ;
#321 = CC_DESIGN_DATE_AND_TIME_ASSIGNMENT ( #153, #25, ( #274 ) ) ;
#322 = CYLINDRICAL_SURFACE ( 'NONE', #304, 5.000000000000000888 ) ;
#323 = CARTESIAN_POINT ( 'NONE',  ( 3.000000000000000000, 0.000000000000000000, 0.000000000000000000 ) ) ;
#324 = CIRCLE ( 'NONE', #223, 12.69999999999999929 ) ;
#325 = VERTEX_POINT ( 'NONE', #300 ) ;
#326 = PLANE ( 'NONE',  #332 ) ;
#327 = CYLINDRICAL_SURFACE ( 'NONE', #26, 5.000000000000000888 ) ;
#328 = FACE_OUTER_BOUND ( 'NONE', #241, .T. ) ;
#329 = CARTESIAN_POINT ( 'NONE',  ( -1.614212418857619014, 0.000000000000000000, 0.000000000000000000 ) ) ;
#330 = ADVANCED_FACE ( 'NONE', ( #199 ), #70, .T. ) ;
#331 = LINE ( 'NONE', #255, #314 ) ;
#332 = AXIS2_PLACEMENT_3D ( 'NONE', #186, #67, #168 ) ;
#333 = CIRCLE ( 'NONE', #139, 5.000000000000001776 ) ;
#334 = VECTOR ( 'NONE', #38, 1000.000000000000000 ) ;
#335 = DIRECTION ( 'NONE',  ( 0.000000000000000000, 0.000000000000000000, -1.000000000000000000 ) ) ;
ENDSEC;
END-ISO-10303-21;
